Streets Of Love, by The Rolling Stones - guitarplayerbox - Easy guitar songs for guitar beginners and newcomers. Best songs to learn on guitar

Streets Of Love

The Rolling Stones

Chords used in this song: Am, C, Em, F, G
AmChord: Am
CChord: C
EmChord: Em
FChord: F
GChord: G
[Intro]
C  G  Em  F

      C         G          Em        F
E|---------0-------3-----------0--------1--1|
B|-------------------------------------1----|
G|------0-----------------------------2-----|
D|----2----------0-----------2-------3------|
A|---3---------2-----------2--------3-------|
E|----------3------------0---------1--------|


[Verse]
     C
You're awful bright,
     G
You're awful smart
  Em
I must admit
    F
You broke my heart


[Verse]
    C
The awful truth
   G
Is really sad
  Em
I must admit
      F
I was awful bad




[Verse]
      C
While lovers laughed
    G
And music plays
   Am
I stumbled by
    G
And hide my pain


[Pre-Chorus]
        F
Umm the lamps are lit
    G
The moon is gone
  F                          G
I think i've crossed the rubicon


[Chorus]
C          G
Ahha ahaha ahaha ahaha
           Am
Walked the streets of love
             F
And they are full of tears


[Chorus]
C          G
Ahha ahaha ahaha ahaha
           Am
Walked the streets of love
             F              F~
And they are full of fears


[Verse]
C
Why music pokes
     G
From passing cars
  Em
A couple watched,
   F
Me from above


[Verse]
  C
A band just played
    G
The wedding march
        Em
And the cornerstone
      F
Mends broken hearts


[Verse]
    C
The woman ends
   G
If for her debts
         Am
Ohh, its free of charge
     G
Just one more chance


[Chorus]
C          G
Ahha ahaha ahaha ahaha
           Am
Walked the streets of love
             F
And they are full of tears


[Chorus]
C          G
Ahha ahaha ahaha ahaha
           Am
Walked the streets of love
      F~
For a thousand years

Ohh...


[Solo]
C  G  Am  F
C  G  Am  F~

------------------------------------------------|
------------------------------------------------|
-7-5-4-5---7-5-4-5---7-5-4-5---4-2--------------|
------------------------------------------------|
------------------------------------------------|
------------------------------------------------|


------------------------------------------------|
------------------------------------------------|
-7-5-4-5---7-5-4-5---7-5-4-5---4-2---0----------|
-----------------------------------2------------|
------------------------------------------------|
------------------------------------------------|


[Verse]
    C
You had the moves
    G
You had the cards
  Em
I must admit
         F
You were awful smart


[Verse]
    C
The awful truth
   G
Is awful sad
  Em
I must admit
      F
I was awful bad


[Chorus]
C          G
Ahha ahaha ahaha ahaha
           Am
Walked the streets of love
             F
And they are full of tears


[Chorus]
C          G
Ahha ahaha ahaha ahaha
           Am
Walked the streets of love
             F
And they are drenched in tears

Play songs while learning to play guitar. A new cool and easy song every week.